Home » Tabulatury i chwyty » J » Judas Priest » Breaking The Law

Judas Priest - Breaking The Law Tab

Intro:

E|--------------------|------------------|----------------------|-----------------|
H|--------------------|------------------|----------------------|-----------------|
G|--------------------|------------------|----------------------|-----------------|
D|--------------------|------------------|----------------------|-----------------|
A|---0--2--3----0--2--|--3----0--2---3---|-----------0----------|--0-------3---2--|
E|--------------------|------------------|---1---3--------1--3--|-------3---------|


Zwrotka:

       A5               C5      G5    A5
E|--------------------------------------------|
H|--------------------------------------------|
G|-----2-----------------5-------------2------|       x2
D|-----2-----------------5------5------2------|    
A|-----0-----------------3------5------0------|
E|------------------------------3-------------|

      F5         C5         F5        E7       
E|--------------------------------------------|
H|--------------------------------------------|
G|-----10-------------------10--------9-------|
D|-----10--------10---------10--------9-------|
A|-----8---------10---------8---------7-------|
E|---------------8----------------------------|




Refren:

     A5            
E|-----------------------------------------------------------------------------|
H|----------------------------------10----------------------------10--10-------|
G|----------------------------------9-----------------------------9---9--------|        x2
D|----------------------------------7-----------------------------7---7--------|
A|---0-0-0-0-0-0-0-0-0-0-0-0-0-0-0---------0-0-0-0-0-0-0-0-0-0-0---------------|
E|-----------------------------------------------------------------------------|





Solo::

        B5           A5                 
E|------------|-------------|
H|------------|-------------|
G|------4-----|------2------|    x4
D|------4-----|------2------|
A|------2-----|------0------|
E|------------|-------------|



       D5         F5     C5            D5         F5        G5 
E|--------------------------------|-----------------------------------|
H|--------------------------------|-----------------------------------|
G|-----7--------7/10--------------|-----7--------7/10-------12--------|     x2
D|-----7--------7/10------10------|-----7--------7/10-------12--------|
A|-----5--------5/8-------10------|-----5--------5/8--------10--------|
E|------------------------8-------|-----------------------------------|



Taby i akordy do Breaking The Law - Judas Priest . Znajdź najlepsze gitarowe chwyty do Breaking The Law. Zagraj Judas Priest Breaking The Law chords.

Zobacz inne opracowania Judas Priest
Skomentuj Judas Priest - Breaking The Law Tab
  • (will not be published)