Metallica - Orion Tab


Intro:

||-----------------|-----------------|----------------|-------------------||
||-----------------|-----------------|----------------|-------------------||
||o----------------|-----------------|-4--------------|------------------o||
||o----------------|-----------------|----------------|-4----------------o||
||--7--------------|(7)--------------|-5--------------|-6-----------------||
||--0--------------|(0)--------------|----------------|-------------------||

Riff 1:

||-----------------|-----------------|-----------------|------------------||
||-----------------|-----------------|-----------------|------------------||
||o----------------|-----------------|-----------------|-----------------o||
||o-5-----5----5---|-4-----5-----5---|-4-----4-----4-4-|-4-----4-----4-4-o||
||--7-----7----7---|-7-----7-----7---|-5-----5-----5-5-|-6-----6-----6-6--||
||----0-0---0-0--0-|---0-0---0-0---0-|---7-7---7-7-----|---7-7---7-7------||

||----------------------------------|---------------------------------|
||----------------------------------|---------------------------------|
||o---------2-----------4-----------|-5-------------------------------|
||o-2-2-2-2-----2-2-2-2-----2-2-2-2-|-----2-2-2-2-2---2-2-3---3-3-2---|
||----------------------------------|---------------------------------|
||----------------------------------|---------------------------------|

Riff 2:

||----------------------------------|---------------------------------|
||----------------------------------|---------------------------------|
||o---------2-----------4-----------|-5-------------------------------|
||o---------2-----------2-----------|-5-------------------------------|
||----------0-----------2-----------|-3-------------------------------|
||--0---0-0-----0-0-0-0-----0-0-0-0-|-----0-0-0-0-0---0-0-1---1-1-0---|

Taby i akordy do Orion - Metallica . Znajdź najlepsze gitarowe chwyty do Orion. Zagraj Metallica Orion chords.

Skomentuj Metallica - Orion Tab
  • (will not be published)