Home » Tabulatury i chwyty » R » Razorlight » America

Razorlight - America

kap. VII

Zwrotka:

| C Dadd4 | G/H C |


E|--------------------------|----------------------------|
H|-------------------3------|----------------------------|
G|--------0------------0----|------2p0--2p0--0-------0---|
D|------2--------4----------|----------------------------|
A|----3------3/5------------|---2-----------------3------|
E|--------------------------|----------------------------|


E|--------------------------|----------------------------|
H|-------------------3------|----------------------------|
G|--------0------------0----|-------4----2--0-------0----|
D|------2--------4----------|-----0---------------2------|
A|----3------3/5------------|---2---------------3--------|
E|--------------------------|----------------------------|

 

Refren:

| C D | G C |

| C D | G C |

| Am D | G C |

| Am D | G |

Taby i akordy do America - Razorlight . Znajdź najlepsze gitarowe chwyty do America. Zagraj Razorlight America chords.

Zobacz inne opracowania Razorlight
    Skomentuj Razorlight - America
    • (will not be published)