Red Hot Chili Peppers - Scar Tissue Tab Chords

Intro:

E|------------------------------------------------------------------------------------|
H|--------10-----10-----10-------10---------------------------------------------------|
G|--------------------------------------9----9/10----10------10-----10------10\9------|
D|------------------------------------------------------------------------------------|
A|---8--------8------8------8---------------------------------------------------------|
E|--------------------------------------8----8/10---------10-----10-----10--------8---|

E|-------------------------------------------------------------------------|
H|--------10-----10-----10-------10----------------------------------------|
G|-------------------------------------------9/10--------12p10--12----10---|
D|-------------------------------------------------------------------------|
A|---8--------8------8------8----------------------------------------------|
E|-------------------------------------------8/10--------------------------|

 

Zwrotka:

E|------------------------------------------------------------------------------------|
H|--------10-----10-----10-------10---------------------------------------------------|
G|--------------------------------------9----9/10----10------10-----10------10\9------|
D|------------------------------------------------------------------------------------|
A|---8--------8------8------8---------------------------------------------------------|
E|--------------------------------------8----8/10---------10-----10-----10--------8---|

E|-------------------------------8-------------------------------------|
H|--------10-----10-----10----------------8/10--------10---------------|
G|--------------------------------------------------------12--10--9----|
D|---------------------------------------------------------------------|
A|---8--------8------8-------------------------------------------------|
E|----------------------------------------8/10-------------------------|

 

Refren:

| F (C) | d (C) |


Solo:

| d | d | C | d |

E|------------------------------------------------------------------|
H|----13\10--10------10\8--8------8/10--10------10/12--12/13--13----|
G|------------------------------------------------------------------|
D|------------------------------------------------------------------|
A|------------------------------------------------------------------|
E|------------------------------------------------------------------|

Taby i akordy do Scar Tissue - Red Hot Chili Peppers . Znajdź najlepsze gitarowe chwyty do Scar Tissue. Zagraj Red Hot Chili Peppers Scar Tissue chords.

Skomentuj Red Hot Chili Peppers - Scar Tissue Tab Chords
  • (will not be published)