Black Sabbath - Paranoid Tab

Intro:

E|------------------------------------------------------|
H|------------------------------------------------------|
G|------------------------------------------------------|         x4
D|--------------------------------12h14-------12h14-----|
A|-----12h14--12h14--12h14--12h14-------12h14-----------|
E|-----12-----12-----12---------------------------------|


Zwrotka:

   E                     x4   D                   x2      
E|-------------------------|-------------------------|-----------------------|
H|-------------------------|-------------------------|-----------------12----|
G|-------------------------|-------------------------|---12------------12----|
D|----14---14---14---14----|----12---12---12---12----|---12--12----14--12----|
A|----14---14---14---14----|----12---12---12---12----|---10--12----14--------|
E|----12---12---12---12----|----10---10---10---10----|-------10----12--------|


Przejście:

       E          C      D                        x2      
E|----------|------------------|-----------------------|
H|----------|------------------|-----------------------|
G|----------|------------------|-----------------------|
D|----14----|----10-----12-----|---14---14---14---14---|
A|----14----|----10-----12-----|---14---14---14---14---|
E|----12----|-----8-----10-----|---12---12---12---12---|


Refren:

       E         D                              
E|----------|-----------|
H|----------|-----------|
G|----------|-----------|      x2
D|----14----|----12-----|
A|----14----|----12-----|
E|----12----|----10-----|

Taby i akordy do Paranoid - Black Sabbath . Znajdź najlepsze gitarowe chwyty do Paranoid. Zagraj Black Sabbath Paranoid chords.

Komentarze
Skomentuj Black Sabbath - Paranoid Tab
  • (will not be published)